ISO-10303-21;
HEADER;
FILE_DESCRIPTION (( 'STEP AP203' ),
    '1' );
FILE_NAME ('Q-QZWP-R4-12.7-488-M.STEP',
    '2020-12-23T01:23:55',
    ( '' ),
    ( '' ),
    'SwSTEP 2.0',
    'SolidWorks 2020',
    '' );
FILE_SCHEMA (( 'CONFIG_CONTROL_DESIGN' ));
ENDSEC;

DATA;
#1 = DIRECTION ( 'NONE',  ( 1.000000000000000000, 0.000000000000000000, 0.000000000000000000 ) ) ;
#2 = EDGE_CURVE ( 'NONE', #305, #34, #325, .T. ) ;
#3 = APPROVAL_PERSON_ORGANIZATION ( #281, #129, #175 ) ;
#4 = MANIFOLD_SOLID_BREP ( 'Ðý×', #79 ) ;
#5 = VECTOR ( 'NONE', #40, 1000.000000000000000 ) ;
#6 = CC_DESIGN_DATE_AND_TIME_ASSIGNMENT ( #287, #250, ( #127 ) ) ;
#7 = SHAPE_DEFINITION_REPRESENTATION ( #277, #83 ) ;
#8 = ORIENTED_EDGE ( 'NONE', *, *, #266, .F. ) ;
#9 = DIRECTION ( 'NONE',  ( 0.000000000000000000, 0.000000000000000000, -1.000000000000000000 ) ) ;
#10 = LOCAL_TIME ( 9, 23, 55.00000000000000000, #56 ) ;
#11 = EDGE_CURVE ( 'NONE', #39, #184, #156, .T. ) ;
#12 = EDGE_LOOP ( 'NONE', ( #132, #183, #193, #30 ) ) ;
#13 = DIRECTION ( 'NONE',  ( 0.000000000000000000, 0.000000000000000000, 1.000000000000000000 ) ) ;
#14 = APPROVAL_STATUS ( 'not_yet_approved' ) ;
#15 = FACE_OUTER_BOUND ( 'NONE', #103, .T. ) ;
#16 = EDGE_CURVE ( 'NONE', #305, #251, #47, .T. ) ;
#17 = ORGANIZATION ( 'UNSPECIFIED', 'UNSPECIFIED', '' ) ;
#18 = DIRECTION ( 'NONE',  ( -1.000000000000000000, -0.000000000000000000, -0.000000000000000000 ) ) ;
#19 = CARTESIAN_POINT ( 'NONE',  ( -1.614212418857619014, 0.000000000000000000, 0.000000000000000000 ) ) ;
#20 = CARTESIAN_POINT ( 'NONE',  ( 1.500000000000000444, 6.349999999999999645, 0.000000000000000000 ) ) ;
#21 = APPLICATION_PROTOCOL_DEFINITION ( 'international standard', 'config_control_design', 1994, #74 ) ;
#22 = CARTESIAN_POINT ( 'NONE',  ( -1.614212418857619014, 0.000000000000000000, 0.000000000000000000 ) ) ;
#23 = VECTOR ( 'NONE', #168, 1000.000000000000000 ) ;
#24 = CARTESIAN_POINT ( 'NONE',  ( 1.500000000000000888, 0.000000000000000000, 0.000000000000000000 ) ) ;
#25 = PERSON_AND_ORGANIZATION ( #155, #17 ) ;
#26 = APPROVAL_PERSON_ORGANIZATION ( #227, #222, #167 ) ;
#27 = CC_DESIGN_DATE_AND_TIME_ASSIGNMENT ( #158, #261, ( #214 ) ) ;
#28 = PERSON_AND_ORGANIZATION ( #155, #17 ) ;
#29 = APPROVAL_DATE_TIME ( #84, #222 ) ;
#30 = ORIENTED_EDGE ( 'NONE', *, *, #285, .F. ) ;
#31 = CYLINDRICAL_SURFACE ( 'NONE', #257, 6.349999999999999645 ) ;
#32 = DIRECTION ( 'NONE',  ( -1.000000000000000000, -0.000000000000000000, -0.000000000000000000 ) ) ;
#33 = DIRECTION ( 'NONE',  ( -1.000000000000000000, -0.000000000000000000, -0.000000000000000000 ) ) ;
#34 = VERTEX_POINT ( 'NONE', #254 ) ;
#35 = CARTESIAN_POINT ( 'NONE',  ( -2.999999999999999556, 0.000000000000000000, 6.349999999999999645 ) ) ;
#36 = EDGE_CURVE ( 'NONE', #279, #274, #136, .T. ) ;
#37 = AXIS2_PLACEMENT_3D ( 'NONE', #326, #139, #223 ) ;
#38 = PERSON_AND_ORGANIZATION ( #155, #17 ) ;
#39 = VERTEX_POINT ( 'NONE', #186 ) ;
#40 = DIRECTION ( 'NONE',  ( -1.000000000000000000, -0.000000000000000000, -0.000000000000000000 ) ) ;
#41 = DIRECTION ( 'NONE',  ( 0.000000000000000000, 0.000000000000000000, -1.000000000000000000 ) ) ;
#42 = LOCAL_TIME ( 9, 23, 55.00000000000000000, #122 ) ;
#43 = EDGE_LOOP ( 'NONE', ( #219, #185 ) ) ;
#44 = DIRECTION ( 'NONE',  ( 0.000000000000000000, 0.000000000000000000, 1.000000000000000000 ) ) ;
#45 = DIRECTION ( 'NONE',  ( -1.000000000000000000, 0.000000000000000000, -0.000000000000000000 ) ) ;
#46 = FACE_OUTER_BOUND ( 'NONE', #216, .T. ) ;
#47 = CIRCLE ( 'NONE', #87, 6.349999999999999645 ) ;
#48 = APPROVAL_DATE_TIME ( #284, #129 ) ;
#49 = EDGE_CURVE ( 'NONE', #184, #39, #75, .T. ) ;
#50 = CARTESIAN_POINT ( 'NONE',  ( -2.999999999999999556, 0.000000000000000000, 0.000000000000000000 ) ) ;
#51 = CC_DESIGN_APPROVAL ( #171, ( #214 ) ) ;
#52 = CC_DESIGN_PERSON_AND_ORGANIZATION_ASSIGNMENT ( #237, #85, ( #169 ) ) ;
#53 = EDGE_CURVE ( 'NONE', #66, #218, #333, .T. ) ;
#54 = ORIENTED_EDGE ( 'NONE', *, *, #2, .T. ) ;
#55 = CIRCLE ( 'NONE', #37, 6.349999999999999645 ) ;
#56 = COORDINATED_UNIVERSAL_TIME_OFFSET ( 8, 0, .AHEAD. ) ;
#57 = ORIENTED_EDGE ( 'NONE', *, *, #36, .T. ) ;
#58 = EDGE_LOOP ( 'NONE', ( #319, #300, #59, #62 ) ) ;
#59 = ORIENTED_EDGE ( 'NONE', *, *, #233, .T. ) ;
#60 = EDGE_LOOP ( 'NONE', ( #239, #63 ) ) ;
#61 = EDGE_LOOP ( 'NONE', ( #324, #90, #166, #306 ) ) ;
#62 = ORIENTED_EDGE ( 'NONE', *, *, #78, .F. ) ;
#63 = ORIENTED_EDGE ( 'NONE', *, *, #311, .T. ) ;
#64 = CC_DESIGN_PERSON_AND_ORGANIZATION_ASSIGNMENT ( #101, #125, ( #127 ) ) ;
#65 = EDGE_LOOP ( 'NONE', ( #294, #159 ) ) ;
#66 = VERTEX_POINT ( 'NONE', #89 ) ;
#67 = LOCAL_TIME ( 9, 23, 55.00000000000000000, #182 ) ;
#68 = CARTESIAN_POINT ( 'NONE',  ( -1.614212418857619014, 0.000000000000000000, 6.349999999999999645 ) ) ;
#69 = CYLINDRICAL_SURFACE ( 'NONE', #130, 12.69999999999999929 ) ;
#70 = MECHANICAL_CONTEXT ( 'NONE', #74, 'mechanical' ) ;
#71 = DIRECTION ( 'NONE',  ( 0.000000000000000000, 0.000000000000000000, 1.000000000000000000 ) ) ;
#72 = DIRECTION ( 'NONE',  ( 0.000000000000000000, 0.000000000000000000, 1.000000000000000000 ) ) ;
#73 = DIRECTION ( 'NONE',  ( -1.000000000000000000, -0.000000000000000000, -0.000000000000000000 ) ) ;
#74 = APPLICATION_CONTEXT ( 'configuration controlled 3d designs of mechanical parts and assemblies' ) ;
#75 = CIRCLE ( 'NONE', #229, 12.69999999999999929 ) ;
#76 = EDGE_LOOP ( 'NONE', ( #8, #225 ) ) ;
#77 = COORDINATED_UNIVERSAL_TIME_OFFSET ( 8, 0, .AHEAD. ) ;
#78 = EDGE_CURVE ( 'NONE', #66, #330, #93, .T. ) ;
#79 = CLOSED_SHELL ( 'NONE', ( #111, #140, #308, #119, #206, #133, #289, #94, #137, #180 ) ) ;
#80 = AXIS2_PLACEMENT_3D ( 'NONE', #258, #309, #201 ) ;
#81 = EDGE_CURVE ( 'NONE', #218, #291, #302, .T. ) ;
#82 = EDGE_CURVE ( 'NONE', #274, #279, #148, .T. ) ;
#83 = ADVANCED_BREP_SHAPE_REPRESENTATION ( 'Q-QZWP-R4-12.7-488-M', ( #4, #313 ), #292 ) ;
#84 = DATE_AND_TIME ( #264, #197 ) ;
#85 = PERSON_AND_ORGANIZATION_ROLE ( 'creator' ) ;
#86 = CARTESIAN_POINT ( 'NONE',  ( -1.500000000000000444, 0.000000000000000000, 0.000000000000000000 ) ) ;
#87 = AXIS2_PLACEMENT_3D ( 'NONE', #144, #215, #41 ) ;
#88 = AXIS2_PLACEMENT_3D ( 'NONE', #19, #228, #280 ) ;
#89 = CARTESIAN_POINT ( 'NONE',  ( 3.000000000000000888, 0.000000000000000000, 6.349999999999999645 ) ) ;
#90 = ORIENTED_EDGE ( 'NONE', *, *, #16, .T. ) ;
#91 =( LENGTH_UNIT ( ) NAMED_UNIT ( * ) SI_UNIT ( .MILLI., .METRE. ) );
#92 = DIRECTION ( 'NONE',  ( -1.000000000000000000, -0.000000000000000000, -0.000000000000000000 ) ) ;
#93 = LINE ( 'NONE', #267, #23 ) ;
#94 = ADVANCED_FACE ( 'NONE', ( #15 ), #118, .T. ) ;
#95 = CIRCLE ( 'NONE', #128, 6.349999999999999645 ) ;
#96 = DESIGN_CONTEXT ( 'detailed design', #178, 'design' ) ;
#97 = DIRECTION ( 'NONE',  ( 0.000000000000000000, 0.000000000000000000, 1.000000000000000000 ) ) ;
#98 = PLANE ( 'NONE',  #263 ) ;
#99 = AXIS2_PLACEMENT_3D ( 'NONE', #154, #207, #290 ) ;
#100 = FACE_OUTER_BOUND ( 'NONE', #43, .T. ) ;
#101 = PERSON_AND_ORGANIZATION ( #155, #17 ) ;
#102 = FACE_OUTER_BOUND ( 'NONE', #268, .T. ) ;
#103 = EDGE_LOOP ( 'NONE', ( #296, #303, #114, #245 ) ) ;
#104 =( NAMED_UNIT ( * ) PLANE_ANGLE_UNIT ( ) SI_UNIT ( $, .RADIAN. ) );
#105 = CARTESIAN_POINT ( 'NONE',  ( -1.500000000000000444, 0.000000000000000000, 6.349999999999999645 ) ) ;
#106 = PLANE ( 'NONE',  #99 ) ;
#107 = APPLICATION_PROTOCOL_DEFINITION ( 'international standard', 'config_control_design', 1994, #178 ) ;
#108 = AXIS2_PLACEMENT_3D ( 'NONE', #253, #295, #213 ) ;
#109 = DIRECTION ( 'NONE',  ( 0.000000000000000000, 0.000000000000000000, 1.000000000000000000 ) ) ;
#110 = AXIS2_PLACEMENT_3D ( 'NONE', #335, #1, #203 ) ;
#111 = ADVANCED_FACE ( 'NONE', ( #172 ), #69, .T. ) ;
#112 = APPROVAL_DATE_TIME ( #241, #171 ) ;
#113 = DIRECTION ( 'NONE',  ( -1.000000000000000000, -0.000000000000000000, -0.000000000000000000 ) ) ;
#114 = ORIENTED_EDGE ( 'NONE', *, *, #285, .T. ) ;
#115 = CARTESIAN_POINT ( 'NONE',  ( 1.500000000000000888, 0.000000000000000000, 6.349999999999999645 ) ) ;
#116 = AXIS2_PLACEMENT_3D ( 'NONE', #248, #113, #323 ) ;
#117 = ORIENTED_EDGE ( 'NONE', *, *, #260, .F. ) ;
#118 = CYLINDRICAL_SURFACE ( 'NONE', #275, 12.69999999999999929 ) ;
#119 = ADVANCED_FACE ( 'NONE', ( #147 ), #98, .F. ) ;
#120 = PLANE ( 'NONE',  #110 ) ;
#121 = DIRECTION ( 'NONE',  ( 0.000000000000000000, 0.000000000000000000, 1.000000000000000000 ) ) ;
#122 = COORDINATED_UNIVERSAL_TIME_OFFSET ( 8, 0, .AHEAD. ) ;
#123 = AXIS2_PLACEMENT_3D ( 'NONE', #24, #126, #44 ) ;
#124 = FACE_OUTER_BOUND ( 'NONE', #61, .T. ) ;
#125 = PERSON_AND_ORGANIZATION_ROLE ( 'creator' ) ;
#126 = DIRECTION ( 'NONE',  ( -1.000000000000000000, -0.000000000000000000, -0.000000000000000000 ) ) ;
#127 = PRODUCT_DEFINITION ( 'UNKNOWN', '', #169, #96 ) ;
#128 = AXIS2_PLACEMENT_3D ( 'NONE', #320, #240, #298 ) ;
#129 = APPROVAL ( #314, 'UNSPECIFIED' ) ;
#130 = AXIS2_PLACEMENT_3D ( 'NONE', #331, #73, #121 ) ;
#131 = COORDINATED_UNIVERSAL_TIME_OFFSET ( 8, 0, .AHEAD. ) ;
#132 = ORIENTED_EDGE ( 'NONE', *, *, #49, .T. ) ;
#133 = ADVANCED_FACE ( 'NONE', ( #124 ), #177, .F. ) ;
#134 = DIRECTION ( 'NONE',  ( 0.000000000000000000, 0.000000000000000000, 1.000000000000000000 ) ) ;
#135 = DIRECTION ( 'NONE',  ( -1.000000000000000000, -0.000000000000000000, -0.000000000000000000 ) ) ;
#136 = CIRCLE ( 'NONE', #252, 12.69999999999999929 ) ;
#137 = ADVANCED_FACE ( 'NONE', ( #231, #286 ), #226, .F. ) ;
#138 = DIRECTION ( 'NONE',  ( -1.000000000000000000, -0.000000000000000000, -0.000000000000000000 ) ) ;
#139 = DIRECTION ( 'NONE',  ( -1.000000000000000000, -0.000000000000000000, -0.000000000000000000 ) ) ;
#140 = ADVANCED_FACE ( 'NONE', ( #46 ), #256, .F. ) ;
#141 = EDGE_LOOP ( 'NONE', ( #57, #247 ) ) ;
#142 = ORIENTED_EDGE ( 'NONE', *, *, #316, .T. ) ;
#143 = CARTESIAN_POINT ( 'NONE',  ( -1.614212418857619014, 0.000000000000000000, 12.69999999999999929 ) ) ;
#144 = CARTESIAN_POINT ( 'NONE',  ( -1.500000000000000444, 0.000000000000000000, 0.000000000000000000 ) ) ;
#145 = LINE ( 'NONE', #255, #234 ) ;
#146 =( NAMED_UNIT ( * ) SI_UNIT ( $, .STERADIAN. ) SOLID_ANGLE_UNIT ( ) );
#147 = FACE_OUTER_BOUND ( 'NONE', #76, .T. ) ;
#148 = CIRCLE ( 'NONE', #116, 12.69999999999999929 ) ;
#149 = LINE ( 'NONE', #68, #270 ) ;
#150 = DIRECTION ( 'NONE',  ( -1.000000000000000000, -0.000000000000000000, -0.000000000000000000 ) ) ;
#151 = CC_DESIGN_APPROVAL ( #222, ( #169 ) ) ;
#152 = CC_DESIGN_SECURITY_CLASSIFICATION ( #214, ( #169 ) ) ;
#153 = FACE_OUTER_BOUND ( 'NONE', #58, .T. ) ;
#154 = CARTESIAN_POINT ( 'NONE',  ( -3.000000000000000000, 6.349999999999999645, 0.000000000000000000 ) ) ;
#155 = PERSON ( 'UNSPECIFIED', 'UNSPECIFIED', 'UNSPECIFIED', ('UNSPECIFIED'), ('UNSPECIFIED'), ('UNSPECIFIED') ) ;
#156 = CIRCLE ( 'NONE', #288, 12.69999999999999929 ) ;
#157 = VECTOR ( 'NONE', #32, 1000.000000000000000 ) ;
#158 = DATE_AND_TIME ( #246, #67 ) ;
#159 = ORIENTED_EDGE ( 'NONE', *, *, #11, .F. ) ;
#160 = CARTESIAN_POINT ( 'NONE',  ( 3.000000000000000000, 0.000000000000000000, 0.000000000000000000 ) ) ;
#161 = ORIENTED_EDGE ( 'NONE', *, *, #266, .T. ) ;
#162 = CARTESIAN_POINT ( 'NONE',  ( -1.614212418857619014, 0.000000000000000000, 0.000000000000000000 ) ) ;
#163 = CIRCLE ( 'NONE', #208, 6.349999999999999645 ) ;
#164 = EDGE_CURVE ( 'NONE', #39, #274, #145, .T. ) ;
#165 = CARTESIAN_POINT ( 'NONE',  ( -3.000000000000000000, 0.000000000000000000, 0.000000000000000000 ) ) ;
#166 = ORIENTED_EDGE ( 'NONE', *, *, #199, .T. ) ;
#167 = APPROVAL_ROLE ( '' ) ;
#168 = DIRECTION ( 'NONE',  ( -1.000000000000000000, -0.000000000000000000, -0.000000000000000000 ) ) ;
#169 = PRODUCT_DEFINITION_FORMATION_WITH_SPECIFIED_SOURCE ( 'ANY', '', #202, .NOT_KNOWN. ) ;
#170 = CYLINDRICAL_SURFACE ( 'NONE', #80, 6.349999999999999645 ) ;
#171 = APPROVAL ( #235, 'UNSPECIFIED' ) ;
#172 = FACE_OUTER_BOUND ( 'NONE', #12, .T. ) ;
#173 = PERSON_AND_ORGANIZATION_ROLE ( 'design_owner' ) ;
#174 = DIRECTION ( 'NONE',  ( -1.000000000000000000, 0.000000000000000000, -0.000000000000000000 ) ) ;
#175 = APPROVAL_ROLE ( '' ) ;
#176 = AXIS2_PLACEMENT_3D ( 'NONE', #86, #269, #9 ) ;
#177 = CYLINDRICAL_SURFACE ( 'NONE', #88, 6.349999999999999645 ) ;
#178 = APPLICATION_CONTEXT ( 'configuration controlled 3d designs of mechanical parts and assemblies' ) ;
#179 = CALENDAR_DATE ( 2020, 23, 12 ) ;
#180 = ADVANCED_FACE ( 'NONE', ( #100 ), #120, .F. ) ;
#181 = ORIENTED_EDGE ( 'NONE', *, *, #304, .T. ) ;
#182 = COORDINATED_UNIVERSAL_TIME_OFFSET ( 8, 0, .AHEAD. ) ;
#183 = ORIENTED_EDGE ( 'NONE', *, *, #164, .T. ) ;
#184 = VERTEX_POINT ( 'NONE', #198 ) ;
#185 = ORIENTED_EDGE ( 'NONE', *, *, #16, .F. ) ;
#186 = CARTESIAN_POINT ( 'NONE',  ( 3.000000000000000000, 1.555301434917138433E-15, -12.69999999999999929 ) ) ;
#187 = CC_DESIGN_PERSON_AND_ORGANIZATION_ASSIGNMENT ( #25, #173, ( #202 ) ) ;
#188 = ORIENTED_EDGE ( 'NONE', *, *, #81, .F. ) ;
#189 = CARTESIAN_POINT ( 'NONE',  ( 3.000000000000000888, 0.000000000000000000, 0.000000000000000000 ) ) ;
#190 = AXIS2_PLACEMENT_3D ( 'NONE', #307, #45, #232 ) ;
#191 = CARTESIAN_POINT ( 'NONE',  ( -3.000000000000000000, 0.000000000000000000, 12.69999999999999929 ) ) ;
#192 = DIRECTION ( 'NONE',  ( 0.000000000000000000, 0.000000000000000000, 1.000000000000000000 ) ) ;
#193 = ORIENTED_EDGE ( 'NONE', *, *, #36, .F. ) ;
#194 = ORIENTED_EDGE ( 'NONE', *, *, #304, .F. ) ;
#195 = PRODUCT_RELATED_PRODUCT_CATEGORY ( 'detail', '', ( #202 ) ) ;
#196 = DIRECTION ( 'NONE',  ( -0.000000000000000000, 0.000000000000000000, 1.000000000000000000 ) ) ;
#197 = LOCAL_TIME ( 9, 23, 55.00000000000000000, #131 ) ;
#198 = CARTESIAN_POINT ( 'NONE',  ( 3.000000000000000000, 0.000000000000000000, 12.69999999999999929 ) ) ;
#199 = EDGE_CURVE ( 'NONE', #251, #327, #149, .T. ) ;
#200 = DIRECTION ( 'NONE',  ( 1.000000000000000000, 0.000000000000000000, 0.000000000000000000 ) ) ;
#201 = DIRECTION ( 'NONE',  ( 0.000000000000000000, 0.000000000000000000, 1.000000000000000000 ) ) ;
#202 = PRODUCT ( 'Q-QZWP-R4-12.7-488-M', 'Q-QZWP-R4-12.7-488-M', '', ( #70 ) ) ;
#203 = DIRECTION ( 'NONE',  ( 0.000000000000000000, 0.000000000000000000, -1.000000000000000000 ) ) ;
#204 = CARTESIAN_POINT ( 'NONE',  ( 0.000000000000000000, 0.000000000000000000, 0.000000000000000000 ) ) ;
#205 = CIRCLE ( 'NONE', #123, 6.349999999999999645 ) ;
#206 = ADVANCED_FACE ( 'NONE', ( #102 ), #170, .F. ) ;
#207 = DIRECTION ( 'NONE',  ( 1.000000000000000000, 0.000000000000000000, 0.000000000000000000 ) ) ;
#208 = AXIS2_PLACEMENT_3D ( 'NONE', #50, #150, #109 ) ;
#209 = PERSON_AND_ORGANIZATION_ROLE ( 'design_supplier' ) ;
#210 = PERSON_AND_ORGANIZATION ( #155, #17 ) ;
#211 = ORIENTED_EDGE ( 'NONE', *, *, #199, .F. ) ;
#212 = DIRECTION ( 'NONE',  ( -1.000000000000000000, -0.000000000000000000, -0.000000000000000000 ) ) ;
#213 = DIRECTION ( 'NONE',  ( 0.000000000000000000, 0.000000000000000000, 1.000000000000000000 ) ) ;
#214 = SECURITY_CLASSIFICATION ( '', '', #243 ) ;
#215 = DIRECTION ( 'NONE',  ( 1.000000000000000000, 0.000000000000000000, 0.000000000000000000 ) ) ;
#216 = EDGE_LOOP ( 'NONE', ( #142, #54, #181, #211 ) ) ;
#217 = CARTESIAN_POINT ( 'NONE',  ( 3.000000000000000000, 0.000000000000000000, 0.000000000000000000 ) ) ;
#218 = VERTEX_POINT ( 'NONE', #310 ) ;
#219 = ORIENTED_EDGE ( 'NONE', *, *, #316, .F. ) ;
#220 = CARTESIAN_POINT ( 'NONE',  ( -3.000000000000000000, 1.555301434917138433E-15, -12.69999999999999929 ) ) ;
#221 = CARTESIAN_POINT ( 'NONE',  ( -1.614212418857619014, 0.000000000000000000, 0.000000000000000000 ) ) ;
#222 = APPROVAL ( #14, 'UNSPECIFIED' ) ;
#223 = DIRECTION ( 'NONE',  ( 0.000000000000000000, 0.000000000000000000, 1.000000000000000000 ) ) ;
#224 = UNCERTAINTY_MEASURE_WITH_UNIT (LENGTH_MEASURE( 1.000000000000000082E-05 ), #91, 'distance_accuracy_value', 'NONE');
#225 = ORIENTED_EDGE ( 'NONE', *, *, #233, .F. ) ;
#226 = PLANE ( 'NONE',  #190 ) ;
#227 = PERSON_AND_ORGANIZATION ( #155, #17 ) ;
#228 = DIRECTION ( 'NONE',  ( -1.000000000000000000, -0.000000000000000000, -0.000000000000000000 ) ) ;
#229 = AXIS2_PLACEMENT_3D ( 'NONE', #160, #92, #97 ) ;
#230 = CALENDAR_DATE ( 2020, 23, 12 ) ;
#231 = FACE_OUTER_BOUND ( 'NONE', #65, .T. ) ;
#232 = DIRECTION ( 'NONE',  ( -0.000000000000000000, 0.000000000000000000, 1.000000000000000000 ) ) ;
#233 = EDGE_CURVE ( 'NONE', #291, #330, #205, .T. ) ;
#234 = VECTOR ( 'NONE', #332, 1000.000000000000000 ) ;
#235 = APPROVAL_STATUS ( 'not_yet_approved' ) ;
#236 = CARTESIAN_POINT ( 'NONE',  ( 1.500000000000000888, 7.776507174585692163E-16, -6.349999999999999645 ) ) ;
#237 = PERSON_AND_ORGANIZATION ( #155, #17 ) ;
#238 = CC_DESIGN_PERSON_AND_ORGANIZATION_ASSIGNMENT ( #38, #318, ( #214 ) ) ;
#239 = ORIENTED_EDGE ( 'NONE', *, *, #53, .T. ) ;
#240 = DIRECTION ( 'NONE',  ( -1.000000000000000000, -0.000000000000000000, -0.000000000000000000 ) ) ;
#241 = DATE_AND_TIME ( #265, #10 ) ;
#242 = ORIENTED_EDGE ( 'NONE', *, *, #78, .T. ) ;
#243 = SECURITY_CLASSIFICATION_LEVEL ( 'unclassified' ) ;
#244 = DIRECTION ( 'NONE',  ( 0.000000000000000000, 0.000000000000000000, 1.000000000000000000 ) ) ;
#245 = ORIENTED_EDGE ( 'NONE', *, *, #82, .F. ) ;
#246 = CALENDAR_DATE ( 2020, 23, 12 ) ;
#247 = ORIENTED_EDGE ( 'NONE', *, *, #82, .T. ) ;
#248 = CARTESIAN_POINT ( 'NONE',  ( -3.000000000000000000, 0.000000000000000000, 0.000000000000000000 ) ) ;
#249 = LINE ( 'NONE', #143, #157 ) ;
#250 = DATE_TIME_ROLE ( 'creation_date' ) ;
#251 = VERTEX_POINT ( 'NONE', #105 ) ;
#252 = AXIS2_PLACEMENT_3D ( 'NONE', #165, #18, #13 ) ;
#253 = CARTESIAN_POINT ( 'NONE',  ( 1.500000000000000888, 0.000000000000000000, 0.000000000000000000 ) ) ;
#254 = CARTESIAN_POINT ( 'NONE',  ( -2.999999999999999556, 7.776507174585692163E-16, -6.349999999999999645 ) ) ;
#255 = CARTESIAN_POINT ( 'NONE',  ( -1.614212418857619014, 1.555301434917138433E-15, -12.69999999999999929 ) ) ;
#256 = CYLINDRICAL_SURFACE ( 'NONE', #328, 6.349999999999999645 ) ;
#257 = AXIS2_PLACEMENT_3D ( 'NONE', #162, #212, #134 ) ;
#258 = CARTESIAN_POINT ( 'NONE',  ( -1.614212418857619014, 0.000000000000000000, 0.000000000000000000 ) ) ;
#259 = APPROVAL_PERSON_ORGANIZATION ( #28, #171, #293 ) ;
#260 = EDGE_CURVE ( 'NONE', #327, #34, #55, .T. ) ;
#261 = DATE_TIME_ROLE ( 'classification_date' ) ;
#262 = VECTOR ( 'NONE', #33, 1000.000000000000000 ) ;
#263 = AXIS2_PLACEMENT_3D ( 'NONE', #20, #174, #196 ) ;
#264 = CALENDAR_DATE ( 2020, 23, 12 ) ;
#265 = CALENDAR_DATE ( 2020, 23, 12 ) ;
#266 = EDGE_CURVE ( 'NONE', #330, #291, #317, .T. ) ;
#267 = CARTESIAN_POINT ( 'NONE',  ( -1.614212418857619014, 0.000000000000000000, 6.349999999999999645 ) ) ;
#268 = EDGE_LOOP ( 'NONE', ( #188, #271, #242, #161 ) ) ;
#269 = DIRECTION ( 'NONE',  ( 1.000000000000000000, 0.000000000000000000, 0.000000000000000000 ) ) ;
#270 = VECTOR ( 'NONE', #282, 1000.000000000000000 ) ;
#271 = ORIENTED_EDGE ( 'NONE', *, *, #53, .F. ) ;
#272 = CARTESIAN_POINT ( 'NONE',  ( -1.614212418857619014, 7.776507174585692163E-16, -6.349999999999999645 ) ) ;
#273 = CARTESIAN_POINT ( 'NONE',  ( -1.614212418857619014, 7.776507174585692163E-16, -6.349999999999999645 ) ) ;
#274 = VERTEX_POINT ( 'NONE', #220 ) ;
#275 = AXIS2_PLACEMENT_3D ( 'NONE', #221, #329, #312 ) ;
#276 = CC_DESIGN_APPROVAL ( #129, ( #127 ) ) ;
#277 = PRODUCT_DEFINITION_SHAPE ( 'NONE', 'NONE',  #127 ) ;
#278 = DIRECTION ( 'NONE',  ( -1.000000000000000000, -0.000000000000000000, -0.000000000000000000 ) ) ;
#279 = VERTEX_POINT ( 'NONE', #191 ) ;
#280 = DIRECTION ( 'NONE',  ( 0.000000000000000000, 0.000000000000000000, 1.000000000000000000 ) ) ;
#281 = PERSON_AND_ORGANIZATION ( #155, #17 ) ;
#282 = DIRECTION ( 'NONE',  ( -1.000000000000000000, -0.000000000000000000, -0.000000000000000000 ) ) ;
#283 = CIRCLE ( 'NONE', #176, 6.349999999999999645 ) ;
#284 = DATE_AND_TIME ( #230, #42 ) ;
#285 = EDGE_CURVE ( 'NONE', #184, #279, #249, .T. ) ;
#286 = FACE_BOUND ( 'NONE', #60, .T. ) ;
#287 = DATE_AND_TIME ( #179, #321 ) ;
#288 = AXIS2_PLACEMENT_3D ( 'NONE', #217, #135, #244 ) ;
#289 = ADVANCED_FACE ( 'NONE', ( #299, #334 ), #106, .F. ) ;
#290 = DIRECTION ( 'NONE',  ( 0.000000000000000000, 0.000000000000000000, -1.000000000000000000 ) ) ;
#291 = VERTEX_POINT ( 'NONE', #236 ) ;
#292 =( GEOMETRIC_REPRESENTATION_CONTEXT ( 3 ) GLOBAL_UNCERTAINTY_ASSIGNED_CONTEXT ( ( #224 ) ) GLOBAL_UNIT_ASSIGNED_CONTEXT ( ( #91, #104, #146 ) ) REPRESENTATION_CONTEXT ( 'NONE', 'WORKASPACE' ) );
#293 = APPROVAL_ROLE ( '' ) ;
#294 = ORIENTED_EDGE ( 'NONE', *, *, #49, .F. ) ;
#295 = DIRECTION ( 'NONE',  ( -1.000000000000000000, -0.000000000000000000, -0.000000000000000000 ) ) ;
#296 = ORIENTED_EDGE ( 'NONE', *, *, #164, .F. ) ;
#297 = EDGE_LOOP ( 'NONE', ( #117, #194 ) ) ;
#298 = DIRECTION ( 'NONE',  ( 0.000000000000000000, 0.000000000000000000, 1.000000000000000000 ) ) ;
#299 = FACE_BOUND ( 'NONE', #297, .T. ) ;
#300 = ORIENTED_EDGE ( 'NONE', *, *, #81, .T. ) ;
#301 = AXIS2_PLACEMENT_3D ( 'NONE', #189, #138, #192 ) ;
#302 = LINE ( 'NONE', #272, #5 ) ;
#303 = ORIENTED_EDGE ( 'NONE', *, *, #11, .T. ) ;
#304 = EDGE_CURVE ( 'NONE', #34, #327, #163, .T. ) ;
#305 = VERTEX_POINT ( 'NONE', #315 ) ;
#306 = ORIENTED_EDGE ( 'NONE', *, *, #260, .T. ) ;
#307 = CARTESIAN_POINT ( 'NONE',  ( 3.000000000000000000, 12.69999999999999929, 0.000000000000000000 ) ) ;
#308 = ADVANCED_FACE ( 'NONE', ( #153 ), #31, .F. ) ;
#309 = DIRECTION ( 'NONE',  ( -1.000000000000000000, -0.000000000000000000, -0.000000000000000000 ) ) ;
#310 = CARTESIAN_POINT ( 'NONE',  ( 3.000000000000000888, 7.776507174585692163E-16, -6.349999999999999645 ) ) ;
#311 = EDGE_CURVE ( 'NONE', #218, #66, #95, .T. ) ;
#312 = DIRECTION ( 'NONE',  ( 0.000000000000000000, 0.000000000000000000, 1.000000000000000000 ) ) ;
#313 = AXIS2_PLACEMENT_3D ( 'NONE', #204, #72, #200 ) ;
#314 = APPROVAL_STATUS ( 'not_yet_approved' ) ;
#315 = CARTESIAN_POINT ( 'NONE',  ( -1.500000000000000444, 7.776507174585692163E-16, -6.349999999999999645 ) ) ;
#316 = EDGE_CURVE ( 'NONE', #251, #305, #283, .T. ) ;
#317 = CIRCLE ( 'NONE', #108, 6.349999999999999645 ) ;
#318 = PERSON_AND_ORGANIZATION_ROLE ( 'classification_officer' ) ;
#319 = ORIENTED_EDGE ( 'NONE', *, *, #311, .F. ) ;
#320 = CARTESIAN_POINT ( 'NONE',  ( 3.000000000000000888, 0.000000000000000000, 0.000000000000000000 ) ) ;
#321 = LOCAL_TIME ( 9, 23, 55.00000000000000000, #77 ) ;
#322 = CC_DESIGN_PERSON_AND_ORGANIZATION_ASSIGNMENT ( #210, #209, ( #169 ) ) ;
#323 = DIRECTION ( 'NONE',  ( 0.000000000000000000, 0.000000000000000000, 1.000000000000000000 ) ) ;
#324 = ORIENTED_EDGE ( 'NONE', *, *, #2, .F. ) ;
#325 = LINE ( 'NONE', #273, #262 ) ;
#326 = CARTESIAN_POINT ( 'NONE',  ( -2.999999999999999556, 0.000000000000000000, 0.000000000000000000 ) ) ;
#327 = VERTEX_POINT ( 'NONE', #35 ) ;
#328 = AXIS2_PLACEMENT_3D ( 'NONE', #22, #278, #71 ) ;
#329 = DIRECTION ( 'NONE',  ( -1.000000000000000000, -0.000000000000000000, -0.000000000000000000 ) ) ;
#330 = VERTEX_POINT ( 'NONE', #115 ) ;
#331 = CARTESIAN_POINT ( 'NONE',  ( -1.614212418857619014, 0.000000000000000000, 0.000000000000000000 ) ) ;
#332 = DIRECTION ( 'NONE',  ( -1.000000000000000000, -0.000000000000000000, -0.000000000000000000 ) ) ;
#333 = CIRCLE ( 'NONE', #301, 6.349999999999999645 ) ;
#334 = FACE_OUTER_BOUND ( 'NONE', #141, .T. ) ;
#335 = CARTESIAN_POINT ( 'NONE',  ( -1.500000000000000444, 6.349999999999999645, 0.000000000000000000 ) ) ;
ENDSEC;
END-ISO-10303-21;
